ISO-10303-21;
HEADER;
FILE_DESCRIPTION (( 'STEP AP203' ),
    '1' );
FILE_NAME ('1805442E.STEP',
    '2021-10-22T10:16:17',
    ( '' ),
    ( '' ),
    'SwSTEP 2.0',
    'SolidWorks 2020',
    '' );
FILE_SCHEMA (( 'CONFIG_CONTROL_DESIGN' ));
ENDSEC;

DATA;
#1 = EDGE_CURVE ( 'NONE', #183, #47, #372, .T. ) ;
#2 = CARTESIAN_POINT ( 'NONE',  ( -21.25000000000001776, 0.000000000000000000, 0.000000000000000000 ) ) ;
#3 = CARTESIAN_POINT ( 'NONE',  ( -21.25000000000001066, 119.9999999999999574, 1.500000000000000000 ) ) ;
#4 = ORIENTED_EDGE ( 'NONE', *, *, #259, .F. ) ;
#5 = EDGE_LOOP ( 'NONE', ( #66, #247, #15, #361 ) ) ;
#6 = EDGE_CURVE ( 'NONE', #98, #239, #312, .T. ) ;
#7 = DIRECTION ( 'NONE',  ( -0.000000000000000000, -0.000000000000000000, -1.000000000000000000 ) ) ;
#8 = ORIENTED_EDGE ( 'NONE', *, *, #203, .F. ) ;
#9 = FACE_OUTER_BOUND ( 'NONE', #305, .T. ) ;
#10 = ORIENTED_EDGE ( 'NONE', *, *, #6, .T. ) ;
#11 = CIRCLE ( 'NONE', #63, 1.000000000000014655 ) ;
#12 = DATE_AND_TIME ( #79, #92 ) ;
#13 = ADVANCED_FACE ( 'NONE', ( #22 ), #338, .F. ) ;
#14 = VERTEX_POINT ( 'NONE', #75 ) ;
#15 = ORIENTED_EDGE ( 'NONE', *, *, #103, .F. ) ;
#16 = PERSON_AND_ORGANIZATION ( #147, #258 ) ;
#17 = VECTOR ( 'NONE', #343, 1000.000000000000000 ) ;
#18 = VECTOR ( 'NONE', #174, 1000.000000000000000 ) ;
#19 = CARTESIAN_POINT ( 'NONE',  ( -21.25000000000001066, 119.9999999999999716, 0.000000000000000000 ) ) ;
#20 = EDGE_CURVE ( 'NONE', #34, #183, #182, .T. ) ;
#21 = PERSON_AND_ORGANIZATION_ROLE ( 'creator' ) ;
#22 = FACE_OUTER_BOUND ( 'NONE', #37, .T. ) ;
#23 = ORIENTED_EDGE ( 'NONE', *, *, #74, .F. ) ;
#24 = LINE ( 'NONE', #175, #300 ) ;
#25 = CIRCLE ( 'NONE', #118, 1.000000000000000888 ) ;
#26 = CARTESIAN_POINT ( 'NONE',  ( -22.25000000000001421, 118.9999999999999432, 1.500000000000000000 ) ) ;
#27 = DESIGN_CONTEXT ( 'detailed design', #119, 'design' ) ;
#28 = DIRECTION ( 'NONE',  ( 1.000000000000000000, 0.000000000000000000, 0.000000000000000000 ) ) ;
#29 = DIRECTION ( 'NONE',  ( -1.000000000000000000, -2.612289469706251263E-15, -0.000000000000000000 ) ) ;
#30 = SECURITY_CLASSIFICATION ( '', '', #337 ) ;
#31 = PRODUCT_RELATED_PRODUCT_CATEGORY ( 'detail', '', ( #227 ) ) ;
#32 = CARTESIAN_POINT ( 'NONE',  ( 22.24999999999997868, 119.0000000000000568, 1.500000000000000000 ) ) ;
#33 =( NAMED_UNIT ( * ) PLANE_ANGLE_UNIT ( ) SI_UNIT ( $, .RADIAN. ) );
#34 = VERTEX_POINT ( 'NONE', #222 ) ;
#35 = DIRECTION ( 'NONE',  ( 2.612289469706250869E-15, -1.000000000000000000, 0.000000000000000000 ) ) ;
#36 = ADVANCED_FACE ( 'NONE', ( #285 ), #196, .F. ) ;
#37 = EDGE_LOOP ( 'NONE', ( #168, #73, #311, #303 ) ) ;
#38 = CC_DESIGN_APPROVAL ( #288, ( #30 ) ) ;
#39 = CARTESIAN_POINT ( 'NONE',  ( 0.000000000000000000, 0.000000000000000000, 0.000000000000000000 ) ) ;
#40 = VERTEX_POINT ( 'NONE', #250 ) ;
#41 = DIRECTION ( 'NONE',  ( 1.000000000000000000, 0.000000000000000000, 0.000000000000000000 ) ) ;
#42 = ORIENTED_EDGE ( 'NONE', *, *, #315, .T. ) ;
#43 = VERTEX_POINT ( 'NONE', #80 ) ;
#44 = CC_DESIGN_PERSON_AND_ORGANIZATION_ASSIGNMENT ( #104, #286, ( #251 ) ) ;
#45 = AXIS2_PLACEMENT_3D ( 'NONE', #208, #71, #327 ) ;
#46 = DATE_AND_TIME ( #245, #133 ) ;
#47 = VERTEX_POINT ( 'NONE', #137 ) ;
#48 = APPROVAL_ROLE ( '' ) ;
#49 = ORIENTED_EDGE ( 'NONE', *, *, #152, .T. ) ;
#50 = ADVANCED_FACE ( 'NONE', ( #186 ), #255, .T. ) ;
#51 = CARTESIAN_POINT ( 'NONE',  ( -21.25000000000001776, 0.000000000000000000, 1.500000000000000000 ) ) ;
#52 = EDGE_LOOP ( 'NONE', ( #211, #138, #331, #352, #23, #94, #207, #100 ) ) ;
#53 = DATE_AND_TIME ( #219, #95 ) ;
#54 = DIRECTION ( 'NONE',  ( -1.000000000000000000, 0.000000000000000000, 0.000000000000000000 ) ) ;
#55 = CYLINDRICAL_SURFACE ( 'NONE', #83, 1.000000000000014655 ) ;
#56 = DIRECTION ( 'NONE',  ( 1.000000000000000000, 0.000000000000000000, 0.000000000000000000 ) ) ;
#57 = CIRCLE ( 'NONE', #45, 1.000000000000014655 ) ;
#58 = DIRECTION ( 'NONE',  ( -0.000000000000000000, -0.000000000000000000, -1.000000000000000000 ) ) ;
#59 = LINE ( 'NONE', #117, #18 ) ;
#60 = CC_DESIGN_PERSON_AND_ORGANIZATION_ASSIGNMENT ( #306, #21, ( #328 ) ) ;
#61 = CARTESIAN_POINT ( 'NONE',  ( -21.25000000000001066, 119.9999999999999574, 1.500000000000000000 ) ) ;
#62 = VECTOR ( 'NONE', #107, 1000.000000000000000 ) ;
#63 = AXIS2_PLACEMENT_3D ( 'NONE', #177, #127, #93 ) ;
#64 = APPLICATION_PROTOCOL_DEFINITION ( 'international standard', 'config_control_design', 1994, #119 ) ;
#65 = CARTESIAN_POINT ( 'NONE',  ( 21.24999999999997868, 119.0000000000000568, 0.000000000000000000 ) ) ;
#66 = ORIENTED_EDGE ( 'NONE', *, *, #1, .T. ) ;
#67 = MECHANICAL_CONTEXT ( 'NONE', #136, 'mechanical' ) ;
#68 = VERTEX_POINT ( 'NONE', #189 ) ;
#69 = VECTOR ( 'NONE', #198, 1000.000000000000000 ) ;
#70 = AXIS2_PLACEMENT_3D ( 'NONE', #153, #204, #41 ) ;
#71 = DIRECTION ( 'NONE',  ( 0.000000000000000000, 0.000000000000000000, 1.000000000000000000 ) ) ;
#72 = CARTESIAN_POINT ( 'NONE',  ( -21.25000000000001066, 119.9999999999999716, 1.500000000000000000 ) ) ;
#73 = ORIENTED_EDGE ( 'NONE', *, *, #218, .F. ) ;
#74 = EDGE_CURVE ( 'NONE', #47, #178, #322, .T. ) ;
#75 = CARTESIAN_POINT ( 'NONE',  ( 22.24999999999997868, 119.0000000000000568, 0.000000000000000000 ) ) ;
#76 = VECTOR ( 'NONE', #238, 1000.000000000000000 ) ;
#77 = ORIENTED_EDGE ( 'NONE', *, *, #218, .T. ) ;
#78 = EDGE_CURVE ( 'NONE', #40, #34, #282, .T. ) ;
#79 = CALENDAR_DATE ( 2021, 22, 10 ) ;
#80 = CARTESIAN_POINT ( 'NONE',  ( -22.25000000000001421, 118.9999999999999432, 1.500000000000000000 ) ) ;
#81 = COORDINATED_UNIVERSAL_TIME_OFFSET ( 0, 0, .AHEAD. ) ;
#82 = ORIENTED_EDGE ( 'NONE', *, *, #246, .F. ) ;
#83 = AXIS2_PLACEMENT_3D ( 'NONE', #344, #144, #87 ) ;
#84 = VERTEX_POINT ( 'NONE', #200 ) ;
#85 = LINE ( 'NONE', #139, #229 ) ;
#86 = DIRECTION ( 'NONE',  ( -5.880418562633247208E-17, -1.000000000000000000, 0.000000000000000000 ) ) ;
#87 = DIRECTION ( 'NONE',  ( -1.000000000000000000, 0.000000000000000000, 0.000000000000000000 ) ) ;
#88 = ADVANCED_FACE ( 'NONE', ( #113 ), #55, .T. ) ;
#89 = CARTESIAN_POINT ( 'NONE',  ( -22.25000000000001421, 118.9999999999999432, 1.500000000000000000 ) ) ;
#90 = CARTESIAN_POINT ( 'NONE',  ( -22.25000000000002132, 1.000000000000001110, 1.500000000000000000 ) ) ;
#91 = PERSON_AND_ORGANIZATION_ROLE ( 'design_owner' ) ;
#92 = LOCAL_TIME ( 11, 16, 17.00000000000000000, #130 ) ;
#93 = DIRECTION ( 'NONE',  ( 1.000000000000000000, 0.000000000000000000, 0.000000000000000000 ) ) ;
#94 = ORIENTED_EDGE ( 'NONE', *, *, #1, .F. ) ;
#95 = LOCAL_TIME ( 11, 16, 17.00000000000000000, #360 ) ;
#96 = DIRECTION ( 'NONE',  ( -1.000000000000000000, 0.000000000000000000, 0.000000000000000000 ) ) ;
#97 = EDGE_CURVE ( 'NONE', #239, #178, #373, .T. ) ;
#98 = VERTEX_POINT ( 'NONE', #90 ) ;
#99 = DATE_AND_TIME ( #335, #123 ) ;
#100 = ORIENTED_EDGE ( 'NONE', *, *, #78, .F. ) ;
#101 = PERSON_AND_ORGANIZATION ( #147, #258 ) ;
#102 = ORIENTED_EDGE ( 'NONE', *, *, #111, .T. ) ;
#103 = EDGE_CURVE ( 'NONE', #43, #98, #347, .T. ) ;
#104 = PERSON_AND_ORGANIZATION ( #147, #258 ) ;
#105 = CARTESIAN_POINT ( 'NONE',  ( -21.25000000000001776, 1.000000000000000888, 0.000000000000000000 ) ) ;
#106 = DATE_TIME_ROLE ( 'creation_date' ) ;
#107 = DIRECTION ( 'NONE',  ( -1.000000000000000000, -2.612289469706251263E-15, -0.000000000000000000 ) ) ;
#108 = LINE ( 'NONE', #61, #110 ) ;
#109 = AXIS2_PLACEMENT_3D ( 'NONE', #310, #162, #225 ) ;
#110 = VECTOR ( 'NONE', #374, 1000.000000000000000 ) ;
#111 = EDGE_CURVE ( 'NONE', #268, #298, #269, .T. ) ;
#112 = DIRECTION ( 'NONE',  ( 1.000000000000000000, 0.000000000000000000, 0.000000000000000000 ) ) ;
#113 = FACE_OUTER_BOUND ( 'NONE', #336, .T. ) ;
#114 = PLANE ( 'NONE',  #129 ) ;
#115 = EDGE_CURVE ( 'NONE', #178, #276, #228, .T. ) ;
#116 = VECTOR ( 'NONE', #56, 1000.000000000000000 ) ;
#117 = CARTESIAN_POINT ( 'NONE',  ( 21.24999999999997868, 120.0000000000000853, 1.500000000000000000 ) ) ;
#118 = AXIS2_PLACEMENT_3D ( 'NONE', #148, #272, #184 ) ;
#119 = APPLICATION_CONTEXT ( 'configuration controlled 3d designs of mechanical parts and assemblies' ) ;
#120 = CARTESIAN_POINT ( 'NONE',  ( 21.24999999999997868, 120.0000000000000853, 1.500000000000000000 ) ) ;
#121 = CARTESIAN_POINT ( 'NONE',  ( 21.25000000000000355, 0.000000000000000000, 1.500000000000000000 ) ) ;
#122 = CARTESIAN_POINT ( 'NONE',  ( 22.24999999999997868, 119.0000000000000568, 0.000000000000000000 ) ) ;
#123 = LOCAL_TIME ( 11, 16, 17.00000000000000000, #134 ) ;
#124 =( LENGTH_UNIT ( ) NAMED_UNIT ( * ) SI_UNIT ( .MILLI., .METRE. ) );
#125 = CARTESIAN_POINT ( 'NONE',  ( 21.25000000000000355, 0.000000000000000000, 0.000000000000000000 ) ) ;
#126 = EDGE_LOOP ( 'NONE', ( #280, #158, #128, #296 ) ) ;
#127 = DIRECTION ( 'NONE',  ( 0.000000000000000000, 0.000000000000000000, 1.000000000000000000 ) ) ;
#128 = ORIENTED_EDGE ( 'NONE', *, *, #323, .F. ) ;
#129 = AXIS2_PLACEMENT_3D ( 'NONE', #302, #267, #330 ) ;
#130 = COORDINATED_UNIVERSAL_TIME_OFFSET ( 0, 0, .AHEAD. ) ;
#131 = ORIENTED_EDGE ( 'NONE', *, *, #345, .T. ) ;
#132 = DIRECTION ( 'NONE',  ( 0.000000000000000000, -0.000000000000000000, 1.000000000000000000 ) ) ;
#133 = LOCAL_TIME ( 11, 16, 17.00000000000000000, #81 ) ;
#134 = COORDINATED_UNIVERSAL_TIME_OFFSET ( 0, 0, .AHEAD. ) ;
#135 = ORIENTED_EDGE ( 'NONE', *, *, #192, .T. ) ;
#136 = APPLICATION_CONTEXT ( 'configuration controlled 3d designs of mechanical parts and assemblies' ) ;
#137 = CARTESIAN_POINT ( 'NONE',  ( -22.25000000000002132, 1.000000000000001110, 0.000000000000000000 ) ) ;
#138 = ORIENTED_EDGE ( 'NONE', *, *, #315, .F. ) ;
#139 = CARTESIAN_POINT ( 'NONE',  ( 22.25000000000000711, 1.000000000000000888, 1.500000000000000000 ) ) ;
#140 = LINE ( 'NONE', #32, #69 ) ;
#141 = EDGE_CURVE ( 'NONE', #43, #183, #348, .T. ) ;
#142 = DIRECTION ( 'NONE',  ( 5.880418562633247208E-17, 1.000000000000000000, 0.000000000000000000 ) ) ;
#143 = AXIS2_PLACEMENT_3D ( 'NONE', #368, #165, #193 ) ;
#144 = DIRECTION ( 'NONE',  ( -0.000000000000000000, -0.000000000000000000, -1.000000000000000000 ) ) ;
#145 = DIRECTION ( 'NONE',  ( -1.000000000000000000, 0.000000000000000000, 0.000000000000000000 ) ) ;
#146 =( NAMED_UNIT ( * ) SI_UNIT ( $, .STERADIAN. ) SOLID_ANGLE_UNIT ( ) );
#147 = PERSON ( 'UNSPECIFIED', 'UNSPECIFIED', 'UNSPECIFIED', ('UNSPECIFIED'), ('UNSPECIFIED'), ('UNSPECIFIED') ) ;
#148 = CARTESIAN_POINT ( 'NONE',  ( 21.25000000000000355, 1.000000000000000888, 0.000000000000000000 ) ) ;
#149 = ORIENTED_EDGE ( 'NONE', *, *, #74, .T. ) ;
#150 = DIRECTION ( 'NONE',  ( 0.000000000000000000, 0.000000000000000000, 1.000000000000000000 ) ) ;
#151 = ORIENTED_EDGE ( 'NONE', *, *, #111, .F. ) ;
#152 = EDGE_CURVE ( 'NONE', #298, #68, #85, .T. ) ;
#153 = CARTESIAN_POINT ( 'NONE',  ( 21.24999999999997868, 119.0000000000000568, 1.500000000000000000 ) ) ;
#154 = ORIENTED_EDGE ( 'NONE', *, *, #279, .T. ) ;
#155 = ORIENTED_EDGE ( 'NONE', *, *, #259, .T. ) ;
#156 = AXIS2_PLACEMENT_3D ( 'NONE', #172, #58, #145 ) ;
#157 = CALENDAR_DATE ( 2021, 22, 10 ) ;
#158 = ORIENTED_EDGE ( 'NONE', *, *, #141, .F. ) ;
#159 = APPROVAL_STATUS ( 'not_yet_approved' ) ;
#160 = CARTESIAN_POINT ( 'NONE',  ( -22.25000000000001421, 118.9999999999999432, 0.000000000000000000 ) ) ;
#161 = DATE_AND_TIME ( #157, #366 ) ;
#162 = DIRECTION ( 'NONE',  ( -1.000000000000000000, -2.352167425053296911E-16, 0.000000000000000000 ) ) ;
#163 = UNCERTAINTY_MEASURE_WITH_UNIT (LENGTH_MEASURE( 1.000000000000000082E-05 ), #124, 'distance_accuracy_value', 'NONE');
#164 = APPROVAL_ROLE ( '' ) ;
#165 = DIRECTION ( 'NONE',  ( 0.000000000000000000, 0.000000000000000000, 1.000000000000000000 ) ) ;
#166 = CC_DESIGN_DATE_AND_TIME_ASSIGNMENT ( #53, #370, ( #30 ) ) ;
#167 = COORDINATED_UNIVERSAL_TIME_OFFSET ( 0, 0, .AHEAD. ) ;
#168 = ORIENTED_EDGE ( 'NONE', *, *, #115, .T. ) ;
#169 = DIRECTION ( 'NONE',  ( -0.000000000000000000, -0.000000000000000000, -1.000000000000000000 ) ) ;
#170 = CC_DESIGN_SECURITY_CLASSIFICATION ( #30, ( #251 ) ) ;
#171 = EDGE_CURVE ( 'NONE', #84, #14, #140, .T. ) ;
#172 = CARTESIAN_POINT ( 'NONE',  ( -21.25000000000001776, 1.000000000000000888, 1.500000000000000000 ) ) ;
#173 = CARTESIAN_POINT ( 'NONE',  ( -21.25000000000001776, 0.000000000000000000, 1.500000000000000000 ) ) ;
#174 = DIRECTION ( 'NONE',  ( -0.000000000000000000, -0.000000000000000000, -1.000000000000000000 ) ) ;
#175 = CARTESIAN_POINT ( 'NONE',  ( 22.24999999999997868, 119.0000000000000568, 1.500000000000000000 ) ) ;
#176 = APPROVAL ( #159, 'UNSPECIFIED' ) ;
#177 = CARTESIAN_POINT ( 'NONE',  ( 21.24999999999997868, 119.0000000000000568, 0.000000000000000000 ) ) ;
#178 = VERTEX_POINT ( 'NONE', #316 ) ;
#179 = LINE ( 'NONE', #122, #76 ) ;
#180 = ORIENTED_EDGE ( 'NONE', *, *, #323, .T. ) ;
#181 = EDGE_CURVE ( 'NONE', #98, #47, #231, .T. ) ;
#182 = CIRCLE ( 'NONE', #293, 1.000000000000014655 ) ;
#183 = VERTEX_POINT ( 'NONE', #321 ) ;
#184 = DIRECTION ( 'NONE',  ( 1.000000000000000000, 0.000000000000000000, 0.000000000000000000 ) ) ;
#185 = APPROVAL_DATE_TIME ( #12, #252 ) ;
#186 = FACE_OUTER_BOUND ( 'NONE', #126, .T. ) ;
#187 = AXIS2_PLACEMENT_3D ( 'NONE', #359, #7, #96 ) ;
#188 = ADVANCED_FACE ( 'NONE', ( #320 ), #233, .T. ) ;
#189 = CARTESIAN_POINT ( 'NONE',  ( 22.25000000000000711, 1.000000000000000888, 0.000000000000000000 ) ) ;
#190 = APPROVAL_DATE_TIME ( #99, #288 ) ;
#191 = DIRECTION ( 'NONE',  ( 1.000000000000000000, 0.000000000000000000, 0.000000000000000000 ) ) ;
#192 = EDGE_CURVE ( 'NONE', #239, #268, #346, .T. ) ;
#193 = DIRECTION ( 'NONE',  ( 1.000000000000000000, 0.000000000000000000, 0.000000000000000000 ) ) ;
#194 = VECTOR ( 'NONE', #169, 1000.000000000000000 ) ;
#195 = APPROVAL_PERSON_ORGANIZATION ( #101, #252, #48 ) ;
#196 = PLANE ( 'NONE',  #109 ) ;
#197 = DIRECTION ( 'NONE',  ( -0.000000000000000000, -0.000000000000000000, -1.000000000000000000 ) ) ;
#198 = DIRECTION ( 'NONE',  ( -0.000000000000000000, -0.000000000000000000, -1.000000000000000000 ) ) ;
#199 = APPROVAL_PERSON_ORGANIZATION ( #16, #176, #164 ) ;
#200 = CARTESIAN_POINT ( 'NONE',  ( 22.24999999999997868, 119.0000000000000568, 1.500000000000000000 ) ) ;
#201 = CARTESIAN_POINT ( 'NONE',  ( -22.25000000000001421, 118.9999999999999432, 1.500000000000000000 ) ) ;
#202 = CARTESIAN_POINT ( 'NONE',  ( -22.25000000000002132, 1.000000000000001110, 1.500000000000000000 ) ) ;
#203 = EDGE_CURVE ( 'NONE', #220, #40, #59, .T. ) ;
#204 = DIRECTION ( 'NONE',  ( 0.000000000000000000, 0.000000000000000000, 1.000000000000000000 ) ) ;
#205 = PLANE ( 'NONE',  #237 ) ;
#206 = CC_DESIGN_PERSON_AND_ORGANIZATION_ASSIGNMENT ( #213, #281, ( #30 ) ) ;
#207 = ORIENTED_EDGE ( 'NONE', *, *, #20, .F. ) ;
#208 = CARTESIAN_POINT ( 'NONE',  ( -21.25000000000001066, 118.9999999999999432, 1.500000000000000000 ) ) ;
#209 = EDGE_LOOP ( 'NONE', ( #154, #301, #180, #367, #10, #135, #102, #155 ) ) ;
#210 = DIRECTION ( 'NONE',  ( 1.000000000000000000, 0.000000000000000000, -0.000000000000000000 ) ) ;
#211 = ORIENTED_EDGE ( 'NONE', *, *, #345, .F. ) ;
#212 = ADVANCED_FACE ( 'NONE', ( #266 ), #290, .F. ) ;
#213 = PERSON_AND_ORGANIZATION ( #147, #258 ) ;
#214 = ORIENTED_EDGE ( 'NONE', *, *, #340, .T. ) ;
#215 = CC_DESIGN_APPROVAL ( #252, ( #328 ) ) ;
#216 = PERSON_AND_ORGANIZATION ( #147, #258 ) ;
#217 = DIRECTION ( 'NONE',  ( 0.000000000000000000, 0.000000000000000000, 1.000000000000000000 ) ) ;
#218 = EDGE_CURVE ( 'NONE', #268, #276, #292, .T. ) ;
#219 = CALENDAR_DATE ( 2021, 22, 10 ) ;
#220 = VERTEX_POINT ( 'NONE', #120 ) ;
#221 = APPROVAL_STATUS ( 'not_yet_approved' ) ;
#222 = CARTESIAN_POINT ( 'NONE',  ( -21.25000000000001066, 119.9999999999999574, 0.000000000000000000 ) ) ;
#223 = VECTOR ( 'NONE', #253, 1000.000000000000000 ) ;
#224 = PRODUCT_DEFINITION_SHAPE ( 'NONE', 'NONE',  #328 ) ;
#225 = DIRECTION ( 'NONE',  ( 2.352167425053296911E-16, -1.000000000000000000, 0.000000000000000000 ) ) ;
#226 = CARTESIAN_POINT ( 'NONE',  ( 21.25000000000000355, 1.000000000000000888, 1.500000000000000000 ) ) ;
#227 = PRODUCT ( '1805442E', '1805442E', '', ( #67 ) ) ;
#228 = LINE ( 'NONE', #2, #116 ) ;
#229 = VECTOR ( 'NONE', #197, 1000.000000000000000 ) ;
#230 = VECTOR ( 'NONE', #289, 1000.000000000000000 ) ;
#231 = LINE ( 'NONE', #202, #283 ) ;
#232 = EDGE_CURVE ( 'NONE', #220, #308, #261, .T. ) ;
#233 = CYLINDRICAL_SURFACE ( 'NONE', #156, 1.000000000000000888 ) ;
#234 = PERSON_AND_ORGANIZATION ( #147, #258 ) ;
#235 = ADVANCED_BREP_SHAPE_REPRESENTATION ( '1805442E', ( #309, #264 ), #243 ) ;
#236 = CLOSED_SHELL ( 'NONE', ( #88, #350, #50, #212, #188, #13, #274, #36, #263, #355 ) ) ;
#237 = AXIS2_PLACEMENT_3D ( 'NONE', #72, #35, #270 ) ;
#238 = DIRECTION ( 'NONE',  ( -2.352167425053296911E-16, 1.000000000000000000, -0.000000000000000000 ) ) ;
#239 = VERTEX_POINT ( 'NONE', #265 ) ;
#240 = CARTESIAN_POINT ( 'NONE',  ( 22.25000000000000711, 1.000000000000000888, 1.500000000000000000 ) ) ;
#241 = ORIENTED_EDGE ( 'NONE', *, *, #171, .F. ) ;
#242 = PLANE ( 'NONE',  #284 ) ;
#243 =( GEOMETRIC_REPRESENTATION_CONTEXT ( 3 ) GLOBAL_UNCERTAINTY_ASSIGNED_CONTEXT ( ( #163 ) ) GLOBAL_UNIT_ASSIGNED_CONTEXT ( ( #124, #33, #146 ) ) REPRESENTATION_CONTEXT ( 'NONE', 'WORKASPACE' ) );
#244 = ORIENTED_EDGE ( 'NONE', *, *, #203, .T. ) ;
#245 = CALENDAR_DATE ( 2021, 22, 10 ) ;
#246 = EDGE_CURVE ( 'NONE', #308, #34, #108, .T. ) ;
#247 = ORIENTED_EDGE ( 'NONE', *, *, #181, .F. ) ;
#248 = ORIENTED_EDGE ( 'NONE', *, *, #279, .F. ) ;
#249 = APPROVAL_DATE_TIME ( #161, #176 ) ;
#250 = CARTESIAN_POINT ( 'NONE',  ( 21.24999999999997868, 120.0000000000000853, 0.000000000000000000 ) ) ;
#251 = PRODUCT_DEFINITION_FORMATION_WITH_SPECIFIED_SOURCE ( 'ANY', '', #227, .NOT_KNOWN. ) ;
#252 = APPROVAL ( #221, 'UNSPECIFIED' ) ;
#253 = DIRECTION ( 'NONE',  ( -5.880418562633247208E-17, -1.000000000000000000, 0.000000000000000000 ) ) ;
#254 = PERSON_AND_ORGANIZATION_ROLE ( 'creator' ) ;
#255 = CYLINDRICAL_SURFACE ( 'NONE', #357, 1.000000000000014655 ) ;
#256 = ORIENTED_EDGE ( 'NONE', *, *, #181, .T. ) ;
#257 = AXIS2_PLACEMENT_3D ( 'NONE', #105, #217, #191 ) ;
#258 = ORGANIZATION ( 'UNSPECIFIED', 'UNSPECIFIED', '' ) ;
#259 = EDGE_CURVE ( 'NONE', #298, #84, #24, .T. ) ;
#260 = FACE_OUTER_BOUND ( 'NONE', #209, .T. ) ;
#261 = LINE ( 'NONE', #262, #358 ) ;
#262 = CARTESIAN_POINT ( 'NONE',  ( -21.25000000000001066, 119.9999999999999716, 1.500000000000000000 ) ) ;
#263 = ADVANCED_FACE ( 'NONE', ( #260 ), #114, .T. ) ;
#264 = AXIS2_PLACEMENT_3D ( 'NONE', #39, #150, #356 ) ;
#265 = CARTESIAN_POINT ( 'NONE',  ( -21.25000000000001776, 0.000000000000000000, 1.500000000000000000 ) ) ;
#266 = FACE_OUTER_BOUND ( 'NONE', #5, .T. ) ;
#267 = DIRECTION ( 'NONE',  ( 0.000000000000000000, 0.000000000000000000, 1.000000000000000000 ) ) ;
#268 = VERTEX_POINT ( 'NONE', #324 ) ;
#269 = CIRCLE ( 'NONE', #299, 1.000000000000000888 ) ;
#270 = DIRECTION ( 'NONE',  ( 1.000000000000000000, 2.612289469706250869E-15, 0.000000000000000000 ) ) ;
#271 = ORIENTED_EDGE ( 'NONE', *, *, #152, .F. ) ;
#272 = DIRECTION ( 'NONE',  ( 0.000000000000000000, 0.000000000000000000, 1.000000000000000000 ) ) ;
#273 = ORIENTED_EDGE ( 'NONE', *, *, #78, .T. ) ;
#274 = ADVANCED_FACE ( 'NONE', ( #349 ), #351, .T. ) ;
#275 = APPROVAL_PERSON_ORGANIZATION ( #216, #288, #332 ) ;
#276 = VERTEX_POINT ( 'NONE', #125 ) ;
#277 = EDGE_LOOP ( 'NONE', ( #42, #241, #4, #49 ) ) ;
#278 = SHAPE_DEFINITION_REPRESENTATION ( #224, #235 ) ;
#279 = EDGE_CURVE ( 'NONE', #84, #220, #307, .T. ) ;
#280 = ORIENTED_EDGE ( 'NONE', *, *, #20, .T. ) ;
#281 = PERSON_AND_ORGANIZATION_ROLE ( 'classification_officer' ) ;
#282 = LINE ( 'NONE', #19, #62 ) ;
#283 = VECTOR ( 'NONE', #317, 1000.000000000000000 ) ;
#284 = AXIS2_PLACEMENT_3D ( 'NONE', #65, #295, #210 ) ;
#285 = FACE_OUTER_BOUND ( 'NONE', #277, .T. ) ;
#286 = PERSON_AND_ORGANIZATION_ROLE ( 'design_supplier' ) ;
#287 = ORIENTED_EDGE ( 'NONE', *, *, #171, .T. ) ;
#288 = APPROVAL ( #362, 'UNSPECIFIED' ) ;
#289 = DIRECTION ( 'NONE',  ( -0.000000000000000000, -0.000000000000000000, -1.000000000000000000 ) ) ;
#290 = PLANE ( 'NONE',  #342 ) ;
#291 = DIRECTION ( 'NONE',  ( 1.000000000000000000, -5.880418562633247208E-17, 0.000000000000000000 ) ) ;
#292 = LINE ( 'NONE', #121, #230 ) ;
#293 = AXIS2_PLACEMENT_3D ( 'NONE', #313, #314, #112 ) ;
#294 = DIRECTION ( 'NONE',  ( -2.352167425053296911E-16, 1.000000000000000000, -0.000000000000000000 ) ) ;
#295 = DIRECTION ( 'NONE',  ( 0.000000000000000000, 0.000000000000000000, 1.000000000000000000 ) ) ;
#296 = ORIENTED_EDGE ( 'NONE', *, *, #246, .T. ) ;
#297 = FACE_OUTER_BOUND ( 'NONE', #52, .T. ) ;
#298 = VERTEX_POINT ( 'NONE', #240 ) ;
#299 = AXIS2_PLACEMENT_3D ( 'NONE', #226, #319, #28 ) ;
#300 = VECTOR ( 'NONE', #294, 1000.000000000000000 ) ;
#301 = ORIENTED_EDGE ( 'NONE', *, *, #232, .T. ) ;
#302 = CARTESIAN_POINT ( 'NONE',  ( 21.24999999999997868, 119.0000000000000568, 1.500000000000000000 ) ) ;
#303 = ORIENTED_EDGE ( 'NONE', *, *, #97, .T. ) ;
#304 = CC_DESIGN_PERSON_AND_ORGANIZATION_ASSIGNMENT ( #364, #254, ( #251 ) ) ;
#305 = EDGE_LOOP ( 'NONE', ( #273, #82, #329, #244 ) ) ;
#306 = PERSON_AND_ORGANIZATION ( #147, #258 ) ;
#307 = CIRCLE ( 'NONE', #70, 1.000000000000014655 ) ;
#308 = VERTEX_POINT ( 'NONE', #3 ) ;
#309 = MANIFOLD_SOLID_BREP ( '??-??1', #236 ) ;
#310 = CARTESIAN_POINT ( 'NONE',  ( 22.24999999999997868, 119.0000000000000568, 1.500000000000000000 ) ) ;
#311 = ORIENTED_EDGE ( 'NONE', *, *, #192, .F. ) ;
#312 = CIRCLE ( 'NONE', #143, 1.000000000000000888 ) ;
#313 = CARTESIAN_POINT ( 'NONE',  ( -21.25000000000001066, 118.9999999999999432, 0.000000000000000000 ) ) ;
#314 = DIRECTION ( 'NONE',  ( 0.000000000000000000, 0.000000000000000000, 1.000000000000000000 ) ) ;
#315 = EDGE_CURVE ( 'NONE', #68, #14, #179, .T. ) ;
#316 = CARTESIAN_POINT ( 'NONE',  ( -21.25000000000001776, 0.000000000000000000, 0.000000000000000000 ) ) ;
#317 = DIRECTION ( 'NONE',  ( -0.000000000000000000, -0.000000000000000000, -1.000000000000000000 ) ) ;
#318 = CC_DESIGN_PERSON_AND_ORGANIZATION_ASSIGNMENT ( #234, #91, ( #227 ) ) ;
#319 = DIRECTION ( 'NONE',  ( 0.000000000000000000, 0.000000000000000000, 1.000000000000000000 ) ) ;
#320 = FACE_OUTER_BOUND ( 'NONE', #326, .T. ) ;
#321 = CARTESIAN_POINT ( 'NONE',  ( -22.25000000000001421, 118.9999999999999432, 0.000000000000000000 ) ) ;
#322 = CIRCLE ( 'NONE', #257, 1.000000000000000888 ) ;
#323 = EDGE_CURVE ( 'NONE', #308, #43, #57, .T. ) ;
#324 = CARTESIAN_POINT ( 'NONE',  ( 21.25000000000000355, 0.000000000000000000, 1.500000000000000000 ) ) ;
#325 = ORIENTED_EDGE ( 'NONE', *, *, #6, .F. ) ;
#326 = EDGE_LOOP ( 'NONE', ( #149, #341, #325, #256 ) ) ;
#327 = DIRECTION ( 'NONE',  ( 1.000000000000000000, 0.000000000000000000, 0.000000000000000000 ) ) ;
#328 = PRODUCT_DEFINITION ( 'UNKNOWN', '', #251, #27 ) ;
#329 = ORIENTED_EDGE ( 'NONE', *, *, #232, .F. ) ;
#330 = DIRECTION ( 'NONE',  ( 1.000000000000000000, 0.000000000000000000, -0.000000000000000000 ) ) ;
#331 = ORIENTED_EDGE ( 'NONE', *, *, #340, .F. ) ;
#332 = APPROVAL_ROLE ( '' ) ;
#333 = VECTOR ( 'NONE', #377, 1000.000000000000000 ) ;
#334 = DIRECTION ( 'NONE',  ( -0.000000000000000000, -0.000000000000000000, -1.000000000000000000 ) ) ;
#335 = CALENDAR_DATE ( 2021, 22, 10 ) ;
#336 = EDGE_LOOP ( 'NONE', ( #131, #8, #248, #287 ) ) ;
#337 = SECURITY_CLASSIFICATION_LEVEL ( 'unclassified' ) ;
#338 = PLANE ( 'NONE',  #365 ) ;
#339 = VECTOR ( 'NONE', #86, 1000.000000000000000 ) ;
#340 = EDGE_CURVE ( 'NONE', #276, #68, #25, .T. ) ;
#341 = ORIENTED_EDGE ( 'NONE', *, *, #97, .F. ) ;
#342 = AXIS2_PLACEMENT_3D ( 'NONE', #89, #291, #142 ) ;
#343 = DIRECTION ( 'NONE',  ( -0.000000000000000000, -0.000000000000000000, -1.000000000000000000 ) ) ;
#344 = CARTESIAN_POINT ( 'NONE',  ( 21.24999999999997868, 119.0000000000000568, 1.500000000000000000 ) ) ;
#345 = EDGE_CURVE ( 'NONE', #14, #40, #11, .T. ) ;
#346 = LINE ( 'NONE', #173, #333 ) ;
#347 = LINE ( 'NONE', #26, #339 ) ;
#348 = LINE ( 'NONE', #201, #17 ) ;
#349 = FACE_OUTER_BOUND ( 'NONE', #354, .T. ) ;
#350 = ADVANCED_FACE ( 'NONE', ( #9 ), #205, .F. ) ;
#351 = CYLINDRICAL_SURFACE ( 'NONE', #187, 1.000000000000000888 ) ;
#352 = ORIENTED_EDGE ( 'NONE', *, *, #115, .F. ) ;
#353 = APPLICATION_PROTOCOL_DEFINITION ( 'international standard', 'config_control_design', 1994, #136 ) ;
#354 = EDGE_LOOP ( 'NONE', ( #214, #271, #151, #77 ) ) ;
#355 = ADVANCED_FACE ( 'NONE', ( #297 ), #242, .F. ) ;
#356 = DIRECTION ( 'NONE',  ( 1.000000000000000000, 0.000000000000000000, 0.000000000000000000 ) ) ;
#357 = AXIS2_PLACEMENT_3D ( 'NONE', #371, #334, #54 ) ;
#358 = VECTOR ( 'NONE', #29, 1000.000000000000000 ) ;
#359 = CARTESIAN_POINT ( 'NONE',  ( 21.25000000000000355, 1.000000000000000888, 1.500000000000000000 ) ) ;
#360 = COORDINATED_UNIVERSAL_TIME_OFFSET ( 0, 0, .AHEAD. ) ;
#361 = ORIENTED_EDGE ( 'NONE', *, *, #141, .T. ) ;
#362 = APPROVAL_STATUS ( 'not_yet_approved' ) ;
#363 = DIRECTION ( 'NONE',  ( 0.000000000000000000, 1.000000000000000000, 0.000000000000000000 ) ) ;
#364 = PERSON_AND_ORGANIZATION ( #147, #258 ) ;
#365 = AXIS2_PLACEMENT_3D ( 'NONE', #51, #363, #132 ) ;
#366 = LOCAL_TIME ( 11, 16, 17.00000000000000000, #167 ) ;
#367 = ORIENTED_EDGE ( 'NONE', *, *, #103, .T. ) ;
#368 = CARTESIAN_POINT ( 'NONE',  ( -21.25000000000001776, 1.000000000000000888, 1.500000000000000000 ) ) ;
#369 = CC_DESIGN_DATE_AND_TIME_ASSIGNMENT ( #46, #106, ( #328 ) ) ;
#370 = DATE_TIME_ROLE ( 'classification_date' ) ;
#371 = CARTESIAN_POINT ( 'NONE',  ( -21.25000000000001066, 118.9999999999999432, 1.500000000000000000 ) ) ;
#372 = LINE ( 'NONE', #160, #223 ) ;
#373 = LINE ( 'NONE', #375, #194 ) ;
#374 = DIRECTION ( 'NONE',  ( -0.000000000000000000, -0.000000000000000000, -1.000000000000000000 ) ) ;
#375 = CARTESIAN_POINT ( 'NONE',  ( -21.25000000000001776, 0.000000000000000000, 1.500000000000000000 ) ) ;
#376 = CC_DESIGN_APPROVAL ( #176, ( #251 ) ) ;
#377 = DIRECTION ( 'NONE',  ( 1.000000000000000000, 0.000000000000000000, 0.000000000000000000 ) ) ;
ENDSEC;
END-ISO-10303-21;
